Návrat na hlavní stránku
Statistiky:
Nejčtenější článek: "Ukradené" tělo
Celkem fotografí: 139
Celkem tabů: 7
Celkem textů: 43
Nejnovětší příspěvek v diskuzi:


Smell Like Teen Spirit

Kurt hrál obvykle na podladěnou kytaru, ale tyto taby jsou napsané s tradičním laděním (EADghe)


Intro a hlavní riff: (Akordy: F, *Bb, G#, C#)

e[------------------------------------------------------------]
h[------------------------------------------------------------]
g[------------------------3--3-------------------------6--6---]
D[--3---3--3--------------3--3---6---6--6--------------6--6---]
A[--3---3--3--x--x--x--x--1--1---6---6--6--x--x--x--x--4--4---]
E[--1---1--1--x--x--x--x---------4---4--4--x--x--x--x---------]



Sloka:

e[-----------1-----------------------------------]
h[--1--------------------------------------------]
g[-----------------------------------------------]
D[-----------------------------------------------]
A[-----------------------------------------------]
E[-----------------------------------------------]



e[-------1---------1---------1-------1--------1--]
h[--1---------1---------1--------1-------1-------]
g[-----------------------------------------------]
D[-----------------------------------------------]
A[-----------------------------------------------]
E[-----------------------------------------------]



Hey!
e[-----------------------------------------------]
h[-----------------------------------------------]
g[----------------3b-----------------------------]
D[--3-----3--4---------3-----3--8--6-------------]
A[--3--x--3--4---------3--x--3--8--6-------------]
E[--1--x--1--2---------1--x--1--6--4-------------]




Závěr:

e[-----------------------------------------------------------------]
h[-----------------------------------------------------------------]
g[-------8----10-------8--8b--6--5---6-5---------------------------]
D[--10-------------6-----------------------8--6--8--8b--6--5-------]
A[-----------------------------------------------------------------]
E[-----------------------------------------------------------------]



e[-----------------------------------------------]
h[-----------------------------------------------]
g[-----------------------------------------------]
D[---6---5---6---5---6---5---6>5--5>3------------]
A[-----------------------------------------------]
E[-----------------------------------------------]
© 2005 Nirvana.wz.cz - free hosting by Webzdarma - Nahoru - autor webmaster@nirvana.wz.cz