Návrat na hlavní stránku
Statistiky:
Nejčtenější článek: "Ukradené" tělo
Celkem fotografí: 139
Celkem tabů: 7
Celkem textů: 43
Nejnovětší příspěvek v diskuzi:


Death to Birth (z Last Days)

Hlavní písnička k filmu Last Days od Michaela Pitta.
Tohle je vlastně jen intro, skoly se hrajou jako celé akordy bez vybrnkávání, však na to už přijdete sami.


???Am?????????????????????????E
|---------------------------------------------------------|
|--------1-----------1---------------0-----------0--------|
|------2---2-------2---2-----------1---1-------1---1------|
|----2-------2---2-------2p(0)---2-------2---2-------2----|
|--0-----------0---------------2-----------2--------------|
|---------------------------------------------------------|



???F??????????????????????????G
|-----------------------------------3-----3---------------|
|-------------------0-0---------------0-0---0-0-----------|
|-------2---------------0-----------0-----0---------------|
|-----3---3-------3--------------0--------------------0---|
|-3-3-------2---3--------------2--------------------2-----|
|-1-----------1--------------3--------------------3-------|

První část (nad tímto textem) se hraje jako první skola
A druhá část (pod tímto textem) se hraje silněji a s větším důrazem.

???Am??????????????????????????E
|---------------------------------------------------------|
|-----------1----------1--------------------------0-------|
|-----2--2--2--2-----2---2------------1-----------1-------|
|--2--2--2-----2---2-------2p---2-2---2-2---2-2---2-2-----|
|--0-------------0--------------2---2-----2-2---2-----2---|
|---------------------------------------------------------|



???F??????????????????????????G
|-----------------------------------3-----3--3-3-----3------|
|-------------------0-0---------------0-0-0--0-0-----0------|
|-----2--2---------------0-----------0----0-0--0--0--0------|
|-----3----3-------3--------------0-------0----0--0---------|
|-3-3--------2-3-3--------------2---------2----2--2---------|
|-1------------1--------------3-----------3----3--3---------I
© 2005 Nirvana.wz.cz - free hosting by Webzdarma - Nahoru - autor webmaster@nirvana.wz.cz